Player Rankings

Player Rankings

RankPlayerAvg RankAuction Value ($)Michael FabianoMarcas GrantGraham BarfieldAdam Rank
1------------
2------------
3
Andrew Adams DB - TB
------------
4
Jamal Adams DB - NYJ
5.00--5------
5
Mike Adams DB - CAR
18.00--------18
6
Jahleel Addae DB - LAC
20.00--20------
7
Jamal Agnew DB - DET
------------
8
Walt Aikens DB - MIA
------------
9------------
10------------
11------------
12------------
13
Robert Alford DB - ATL
------------
14
Brian Allen DB - PIT
------------
15
Ricardo Allen DB - ATL
------------
16
David Amerson DB - ARI
------------
17
Adrian Amos DB - CHI
17.00--17------
18------------
19
Troy Apke DB - WAS
------------
20
Eli Apple DB - NO
------------
21
Anthony Averett DB - BAL
------------
22
Chidobe Awuzie DB - DAL
------------
23------------
24
Budda Baker DB - ARI
11.00--11------
25
Chris Banjo DB - NO
------------
26
Jessie Bates DB - CIN
------------
27------------
28------------
29------------
30
Vonn Bell DB - NO
23.00--23------