Player Rankings

Player Rankings

RankPlayerAvg RankAuction Value ($)Michael FabianoMarcas GrantGraham BarfieldAdam Rank
12.00--2------
22.50--1----4
33.00--3------
44.00--4------
56.00--6------
6
Muhammad Wilkerson DL - GB IR
6.00--------6
77.50--13----2
8
Danielle Hunter DL - MIN
8.00--8------
9
Carlos Dunlap DL - CIN
9.00--10----8
10
Everson Griffen DL - MIN
9.00--9------
11
Calais Campbell DL - JAX
9.50--12----7
12
Olivier Vernon DL - NYG
10.00--------10
13
Chandler Jones DL - ARI
10.50--7----14
1411.00--------11
15
Ezekiel Ansah DL - DET IR
11.50--18----5
16
Geno Atkins DL - CIN
12.00--------12
17
Fletcher Cox DL - PHI
13.50--24----3
18
Brandon Graham DL - PHI
14.00--14------
1914.50--11----18
20
Cameron Heyward DL - PIT
15.00--15----15
21
Jurrell Casey DL - TEN
16.00--------16
22
Yannick Ngakoue DL - JAX
16.00--16------
23
Akiem Hicks DL - CHI
17.00--17------
24
Michael Bennett DL - PHI Q
19.00--------19
25
Trey Flowers DL - NE
19.00--19------
2619.00--25----13
27
Robert Quinn DL - MIA
20.00--20------
28
Frank Clark DL - SEA
21.00--21------
29
Mike Daniels DL - GB IR
21.00--------21
30
Jerry Hughes DL - BUF
22.00--------22